ISO-10303-21;
HEADER;
FILE_DESCRIPTION (( 'STEP AP214' ),
    '1' );
FILE_NAME ('magnetic-encoder-pair-kit-for-micro-metal-gearmotors-hpcb-compatible-w1r02a.step',
    '2017-01-19T18:38:07',
    ( '' ),
    ( '' ),
    'SwSTEP 2.0',
    'SolidWorks 2016',
    '' );
FILE_SCHEMA (( 'AUTOMOTIVE_DESIGN' ));
ENDSEC;

DATA;
#1 = VERTEX_POINT ( 'NONE', #174 ) ;
#2 = DIRECTION ( 'NONE',  ( 0.0000000000000000000, 0.0000000000000000000, 1.000000000000000000 ) ) ;
#3 = DIRECTION ( 'NONE',  ( 0.0000000000000000000, 0.0000000000000000000, 1.000000000000000000 ) ) ;
#4 = ORIENTED_EDGE ( 'NONE', *, *, #136, .F. ) ;
#5 = ORIENTED_EDGE ( 'NONE', *, *, #128, .F. ) ;
#6 = AXIS2_PLACEMENT_3D ( 'NONE', #184, #3, #187 ) ;
#7 = AXIS2_PLACEMENT_3D ( 'NONE', #163, #38, #10 ) ;
#8 = ORIENTED_EDGE ( 'NONE', *, *, #142, .T. ) ;
#9 = PLANE ( 'NONE',  #7 ) ;
#10 = DIRECTION ( 'NONE',  ( 1.000000000000000000, 0.0000000000000000000, -0.0000000000000000000 ) ) ;
#11 = DIRECTION ( 'NONE',  ( -1.000000000000000000, 0.0000000000000000000, 0.0000000000000000000 ) ) ;
#12 = DIRECTION ( 'NONE',  ( 1.000000000000000000, 0.0000000000000000000, 0.0000000000000000000 ) ) ;
#13 = DIRECTION ( 'NONE',  ( 1.000000000000000000, 0.0000000000000000000, 0.0000000000000000000 ) ) ;
#14 = ADVANCED_FACE ( 'NONE', ( #53 ), #125, .F. ) ;
#15 = FACE_BOUND ( 'NONE', #51, .T. ) ;
#16 = ORIENTED_EDGE ( 'NONE', *, *, #96, .T. ) ;
#17 = DIRECTION ( 'NONE',  ( -0.0000000000000000000, -0.0000000000000000000, -1.000000000000000000 ) ) ;
#18 = PRODUCT_CONTEXT ( 'NONE', #71, 'mechanical' ) ;
#19 = AXIS2_PLACEMENT_3D ( 'NONE', #210, #112, #113 ) ;
#20 = CARTESIAN_POINT ( 'NONE',  ( 3.825000000000000200, 4.684274006738626100E-016, 0.0000000000000000000 ) ) ;
#21 = EDGE_LOOP ( 'NONE', ( #139, #122 ) ) ;
#22 = CARTESIAN_POINT ( 'NONE',  ( 3.825000000000000200, 4.684274006738626100E-016, 2.000000000000000000 ) ) ;
#23 = DIRECTION ( 'NONE',  ( 0.0000000000000000000, 0.0000000000000000000, 1.000000000000000000 ) ) ;
#24 = CARTESIAN_POINT ( 'NONE',  ( -3.825000000000000200, 0.0000000000000000000, 2.000000000000000000 ) ) ;
#25 = CYLINDRICAL_SURFACE ( 'NONE', #48, 3.825000000000000200 ) ;
#26 = CARTESIAN_POINT ( 'NONE',  ( 0.0000000000000000000, 0.0000000000000000000, 2.000000000000000000 ) ) ;
#27 = PRODUCT ( 'magnetic-encoder-pair-kit-for-micro-metal-gearmotors-hpcb-compatible-w1r02a', 'magnetic-encoder-pair-kit-for-micro-metal-gearmotors-hpcb-compatible-w1r02a', '', ( #18 ) ) ;
#28 = CARTESIAN_POINT ( 'NONE',  ( 0.5000000000000000000, 6.123233995736766000E-017, 2.000000000000000000 ) ) ;
#29 = FACE_BOUND ( 'NONE', #31, .T. ) ;
#30 = ADVANCED_FACE ( 'NONE', ( #107 ), #207, .F. ) ;
#31 = EDGE_LOOP ( 'NONE', ( #144, #95 ) ) ;
#32 = PRODUCT_DEFINITION_FORMATION_WITH_SPECIFIED_SOURCE ( 'ANY', '', #27, .NOT_KNOWN. ) ;
#33 = UNCERTAINTY_MEASURE_WITH_UNIT (LENGTH_MEASURE( 1.000000000000000100E-005 ), #67, 'distance_accuracy_value', 'NONE');
#34 = ORIENTED_EDGE ( 'NONE', *, *, #87, .T. ) ;
#35 = CLOSED_SHELL ( 'NONE', ( #30, #134, #41, #183, #103, #14 ) ) ;
#36 = MECHANICAL_DESIGN_GEOMETRIC_PRESENTATION_REPRESENTATION (  '', ( #91 ), #102 ) ;
#37 = CIRCLE ( 'NONE', #92, 0.5000000000000000000 ) ;
#38 = DIRECTION ( 'NONE',  ( 0.0000000000000000000, 0.0000000000000000000, 1.000000000000000000 ) ) ;
#39 = CARTESIAN_POINT ( 'NONE',  ( 0.0000000000000000000, 0.0000000000000000000, 2.000000000000000000 ) ) ;
#40 = COLOUR_RGB ( '',0.2509803921568627400, 0.2509803921568627400, 0.2509803921568627400 ) ;
#41 = ADVANCED_FACE ( 'NONE', ( #177, #15 ), #9, .T. ) ;
#42 = FILL_AREA_STYLE_COLOUR ( '', #40 ) ;
#43 = CARTESIAN_POINT ( 'NONE',  ( 0.0000000000000000000, 0.0000000000000000000, 0.0000000000000000000 ) ) ;
#44 = SURFACE_SIDE_STYLE ('',( #199 ) ) ;
#45 = CARTESIAN_POINT ( 'NONE',  ( 0.0000000000000000000, 0.0000000000000000000, 0.0000000000000000000 ) ) ;
#46 = DIRECTION ( 'NONE',  ( 0.0000000000000000000, 0.0000000000000000000, 1.000000000000000000 ) ) ;
#47 = ORIENTED_EDGE ( 'NONE', *, *, #62, .F. ) ;
#48 = AXIS2_PLACEMENT_3D ( 'NONE', #150, #209, #110 ) ;
#49 = VERTEX_POINT ( 'NONE', #148 ) ;
#50 = CARTESIAN_POINT ( 'NONE',  ( -0.5000000000000000000, 0.0000000000000000000, 0.0000000000000000000 ) ) ;
#51 = EDGE_LOOP ( 'NONE', ( #175, #169 ) ) ;
#52 = SURFACE_STYLE_USAGE ( .BOTH. , #73 ) ;
#53 = FACE_OUTER_BOUND ( 'NONE', #59, .T. ) ;
#54 =( LENGTH_UNIT ( ) NAMED_UNIT ( * ) SI_UNIT ( .MILLI., .METRE. ) );
#55 = AXIS2_PLACEMENT_3D ( 'NONE', #39, #99, #11 ) ;
#56 = UNCERTAINTY_MEASURE_WITH_UNIT (LENGTH_MEASURE( 1.000000000000000100E-005 ), #83, 'distance_accuracy_value', 'NONE');
#57 = AXIS2_PLACEMENT_3D ( 'NONE', #45, #166, #155 ) ;
#58 = PRODUCT_DEFINITION_CONTEXT ( 'detailed design', #106, 'design' ) ;
#59 = EDGE_LOOP ( 'NONE', ( #121, #16, #132, #189 ) ) ;
#60 = EDGE_LOOP ( 'NONE', ( #34, #180, #5, #4 ) ) ;
#61 = DIRECTION ( 'NONE',  ( 1.000000000000000000, 0.0000000000000000000, 0.0000000000000000000 ) ) ;
#62 = EDGE_CURVE ( 'NONE', #117, #89, #188, .T. ) ;
#63 = VECTOR ( 'NONE', #167, 1000.000000000000000 ) ;
#64 = MECHANICAL_DESIGN_GEOMETRIC_PRESENTATION_REPRESENTATION (  '', ( #161 ), #168 ) ;
#65 = PRESENTATION_STYLE_ASSIGNMENT (( #178 ) ) ;
#66 = CARTESIAN_POINT ( 'NONE',  ( -3.825000000000000200, 0.0000000000000000000, 2.000000000000000000 ) ) ;
#67 =( LENGTH_UNIT ( ) NAMED_UNIT ( * ) SI_UNIT ( .MILLI., .METRE. ) );
#68 = PRESENTATION_LAYER_ASSIGNMENT (  '', '', ( #91 ) ) ;
#69 = ORIENTED_EDGE ( 'NONE', *, *, #137, .F. ) ;
#70 =( NAMED_UNIT ( * ) PLANE_ANGLE_UNIT ( ) SI_UNIT ( $, .RADIAN. ) );
#71 = APPLICATION_CONTEXT ( 'automotive_design' ) ;
#72 = ORIENTED_EDGE ( 'NONE', *, *, #137, .T. ) ;
#73 = SURFACE_SIDE_STYLE ('',( #204 ) ) ;
#74 = LINE ( 'NONE', #130, #63 ) ;
#75 = LINE ( 'NONE', #66, #146 ) ;
#76 =( GEOMETRIC_REPRESENTATION_CONTEXT ( 3 ) GLOBAL_UNCERTAINTY_ASSIGNED_CONTEXT ( ( #33 ) ) GLOBAL_UNIT_ASSIGNED_CONTEXT ( ( #67, #181, #86 ) ) REPRESENTATION_CONTEXT ( 'NONE', 'WORKASPACE' ) );
#77 = CARTESIAN_POINT ( 'NONE',  ( -0.5000000000000000000, 0.0000000000000000000, 2.000000000000000000 ) ) ;
#78 = AXIS2_PLACEMENT_3D ( 'NONE', #194, #164, #61 ) ;
#79 = VERTEX_POINT ( 'NONE', #77 ) ;
#80 = CARTESIAN_POINT ( 'NONE',  ( 0.0000000000000000000, 0.0000000000000000000, 2.000000000000000000 ) ) ;
#81 = COLOUR_RGB ( '',0.2509803921568627400, 0.2509803921568627400, 0.2509803921568627400 ) ;
#82 = VECTOR ( 'NONE', #116, 1000.000000000000000 ) ;
#83 =( LENGTH_UNIT ( ) NAMED_UNIT ( * ) SI_UNIT ( .MILLI., .METRE. ) );
#84 = FILL_AREA_STYLE_COLOUR ( '', #81 ) ;
#85 = DIRECTION ( 'NONE',  ( 0.0000000000000000000, 0.0000000000000000000, 1.000000000000000000 ) ) ;
#86 =( NAMED_UNIT ( * ) SI_UNIT ( $, .STERADIAN. ) SOLID_ANGLE_UNIT ( ) );
#87 = EDGE_CURVE ( 'NONE', #79, #170, #37, .T. ) ;
#88 = APPLICATION_PROTOCOL_DEFINITION ( 'draft international standard', 'automotive_design', 1998, #71 ) ;
#89 = VERTEX_POINT ( 'NONE', #22 ) ;
#90 = ORIENTED_EDGE ( 'NONE', *, *, #62, .T. ) ;
#91 = STYLED_ITEM ( 'NONE', ( #201 ), #193 ) ;
#92 = AXIS2_PLACEMENT_3D ( 'NONE', #80, #98, #147 ) ;
#93 = CIRCLE ( 'NONE', #111, 3.825000000000000200 ) ;
#94 = UNCERTAINTY_MEASURE_WITH_UNIT (LENGTH_MEASURE( 1.000000000000000100E-005 ), #54, 'distance_accuracy_value', 'NONE');
#95 = ORIENTED_EDGE ( 'NONE', *, *, #203, .T. ) ;
#96 = EDGE_CURVE ( 'NONE', #170, #79, #135, .T. ) ;
#97 = CARTESIAN_POINT ( 'NONE',  ( 0.5000000000000000000, 6.123233995736766000E-017, 2.000000000000000000 ) ) ;
#98 = DIRECTION ( 'NONE',  ( 0.0000000000000000000, 0.0000000000000000000, 1.000000000000000000 ) ) ;
#99 = DIRECTION ( 'NONE',  ( -0.0000000000000000000, -0.0000000000000000000, -1.000000000000000000 ) ) ;
#100 = DIRECTION ( 'NONE',  ( 0.0000000000000000000, 0.0000000000000000000, 1.000000000000000000 ) ) ;
#101 =( NAMED_UNIT ( * ) SI_UNIT ( $, .STERADIAN. ) SOLID_ANGLE_UNIT ( ) );
#102 =( GEOMETRIC_REPRESENTATION_CONTEXT ( 3 ) GLOBAL_UNCERTAINTY_ASSIGNED_CONTEXT ( ( #94 ) ) GLOBAL_UNIT_ASSIGNED_CONTEXT ( ( #54, #70, #158 ) ) REPRESENTATION_CONTEXT ( 'NONE', 'WORKASPACE' ) );
#103 = ADVANCED_FACE ( 'NONE', ( #186 ), #25, .T. ) ;
#104 = AXIS2_PLACEMENT_3D ( 'NONE', #176, #23, #115 ) ;
#105 = DIRECTION ( 'NONE',  ( 1.000000000000000000, 0.0000000000000000000, 0.0000000000000000000 ) ) ;
#106 = APPLICATION_CONTEXT ( 'automotive_design' ) ;
#107 = FACE_OUTER_BOUND ( 'NONE', #60, .T. ) ;
#108 = EDGE_CURVE ( 'NONE', #159, #49, #93, .T. ) ;
#109 = LINE ( 'NONE', #151, #206 ) ;
#110 = DIRECTION ( 'NONE',  ( -1.000000000000000000, 0.0000000000000000000, 0.0000000000000000000 ) ) ;
#111 = AXIS2_PLACEMENT_3D ( 'NONE', #182, #212, #12 ) ;
#112 = DIRECTION ( 'NONE',  ( -0.0000000000000000000, -0.0000000000000000000, -1.000000000000000000 ) ) ;
#113 = DIRECTION ( 'NONE',  ( -1.000000000000000000, 0.0000000000000000000, 0.0000000000000000000 ) ) ;
#114 = EDGE_LOOP ( 'NONE', ( #192, #72, #140, #173 ) ) ;
#115 = DIRECTION ( 'NONE',  ( 1.000000000000000000, 0.0000000000000000000, 0.0000000000000000000 ) ) ;
#116 = DIRECTION ( 'NONE',  ( -0.0000000000000000000, -0.0000000000000000000, -1.000000000000000000 ) ) ;
#117 = VERTEX_POINT ( 'NONE', #24 ) ;
#118 = DIRECTION ( 'NONE',  ( 1.000000000000000000, 0.0000000000000000000, -0.0000000000000000000 ) ) ;
#119 = DIRECTION ( 'NONE',  ( -0.0000000000000000000, -0.0000000000000000000, -1.000000000000000000 ) ) ;
#120 = EDGE_CURVE ( 'NONE', #170, #1, #127, .T. ) ;
#121 = ORIENTED_EDGE ( 'NONE', *, *, #120, .F. ) ;
#122 = ORIENTED_EDGE ( 'NONE', *, *, #108, .F. ) ;
#123 = PRODUCT_DEFINITION ( 'UNKNOWN', '', #32, #58 ) ;
#124 = AXIS2_PLACEMENT_3D ( 'NONE', #129, #46, #13 ) ;
#125 = CYLINDRICAL_SURFACE ( 'NONE', #19, 0.5000000000000000000 ) ;
#126 = EDGE_CURVE ( 'NONE', #117, #49, #75, .T. ) ;
#127 = LINE ( 'NONE', #28, #82 ) ;
#128 = EDGE_CURVE ( 'NONE', #162, #1, #202, .T. ) ;
#129 = CARTESIAN_POINT ( 'NONE',  ( 0.0000000000000000000, 0.0000000000000000000, 0.0000000000000000000 ) ) ;
#130 = CARTESIAN_POINT ( 'NONE',  ( 3.825000000000000200, 4.684274006738626100E-016, 2.000000000000000000 ) ) ;
#131 = ORIENTED_EDGE ( 'NONE', *, *, #152, .T. ) ;
#132 = ORIENTED_EDGE ( 'NONE', *, *, #136, .T. ) ;
#133 = MANIFOLD_SOLID_BREP ( 'Boss-Extrude1', #35 ) ;
#134 = ADVANCED_FACE ( 'NONE', ( #197 ), #191, .T. ) ;
#135 = CIRCLE ( 'NONE', #104, 0.5000000000000000000 ) ;
#136 = EDGE_CURVE ( 'NONE', #79, #162, #109, .T. ) ;
#137 = EDGE_CURVE ( 'NONE', #89, #159, #74, .T. ) ;
#138 = FILL_AREA_STYLE ('',( #84 ) ) ;
#139 = ORIENTED_EDGE ( 'NONE', *, *, #142, .F. ) ;
#140 = ORIENTED_EDGE ( 'NONE', *, *, #108, .T. ) ;
#141 = PRESENTATION_LAYER_ASSIGNMENT (  '', '', ( #161 ) ) ;
#142 = EDGE_CURVE ( 'NONE', #49, #159, #143, .T. ) ;
#143 = CIRCLE ( 'NONE', #165, 3.825000000000000200 ) ;
#144 = ORIENTED_EDGE ( 'NONE', *, *, #128, .T. ) ;
#145 = PRODUCT_RELATED_PRODUCT_CATEGORY ( 'part', '', ( #27 ) ) ;
#146 = VECTOR ( 'NONE', #119, 1000.000000000000000 ) ;
#147 = DIRECTION ( 'NONE',  ( 1.000000000000000000, 0.0000000000000000000, 0.0000000000000000000 ) ) ;
#148 = CARTESIAN_POINT ( 'NONE',  ( -3.825000000000000200, 0.0000000000000000000, 0.0000000000000000000 ) ) ;
#149 = EDGE_LOOP ( 'NONE', ( #69, #47, #214, #8 ) ) ;
#150 = CARTESIAN_POINT ( 'NONE',  ( 0.0000000000000000000, 0.0000000000000000000, 2.000000000000000000 ) ) ;
#151 = CARTESIAN_POINT ( 'NONE',  ( -0.5000000000000000000, 0.0000000000000000000, 2.000000000000000000 ) ) ;
#152 = EDGE_CURVE ( 'NONE', #89, #117, #172, .T. ) ;
#153 = CARTESIAN_POINT ( 'NONE',  ( 0.0000000000000000000, 0.0000000000000000000, 2.000000000000000000 ) ) ;
#154 = PLANE ( 'NONE',  #211 ) ;
#155 = DIRECTION ( 'NONE',  ( 1.000000000000000000, 0.0000000000000000000, 0.0000000000000000000 ) ) ;
#156 = FACE_OUTER_BOUND ( 'NONE', #21, .T. ) ;
#157 = CARTESIAN_POINT ( 'NONE',  ( 0.0000000000000000000, 0.0000000000000000000, 0.0000000000000000000 ) ) ;
#158 =( NAMED_UNIT ( * ) SI_UNIT ( $, .STERADIAN. ) SOLID_ANGLE_UNIT ( ) );
#159 = VERTEX_POINT ( 'NONE', #20 ) ;
#160 = APPLICATION_PROTOCOL_DEFINITION ( 'draft international standard', 'automotive_design', 1998, #106 ) ;
#161 = STYLED_ITEM ( 'NONE', ( #65 ), #133 ) ;
#162 = VERTEX_POINT ( 'NONE', #50 ) ;
#163 = CARTESIAN_POINT ( 'NONE',  ( 0.0000000000000000000, 0.0000000000000000000, 2.000000000000000000 ) ) ;
#164 = DIRECTION ( 'NONE',  ( 0.0000000000000000000, 0.0000000000000000000, 1.000000000000000000 ) ) ;
#165 = AXIS2_PLACEMENT_3D ( 'NONE', #43, #2, #105 ) ;
#166 = DIRECTION ( 'NONE',  ( 0.0000000000000000000, 0.0000000000000000000, 1.000000000000000000 ) ) ;
#167 = DIRECTION ( 'NONE',  ( -0.0000000000000000000, -0.0000000000000000000, -1.000000000000000000 ) ) ;
#168 =( GEOMETRIC_REPRESENTATION_CONTEXT ( 3 ) GLOBAL_UNCERTAINTY_ASSIGNED_CONTEXT ( ( #56 ) ) GLOBAL_UNIT_ASSIGNED_CONTEXT ( ( #83, #198, #101 ) ) REPRESENTATION_CONTEXT ( 'NONE', 'WORKASPACE' ) );
#169 = ORIENTED_EDGE ( 'NONE', *, *, #96, .F. ) ;
#170 = VERTEX_POINT ( 'NONE', #97 ) ;
#171 = EDGE_LOOP ( 'NONE', ( #90, #131 ) ) ;
#172 = CIRCLE ( 'NONE', #208, 3.825000000000000200 ) ;
#173 = ORIENTED_EDGE ( 'NONE', *, *, #126, .F. ) ;
#174 = CARTESIAN_POINT ( 'NONE',  ( 0.5000000000000000000, 6.123233995736766000E-017, 0.0000000000000000000 ) ) ;
#175 = ORIENTED_EDGE ( 'NONE', *, *, #87, .F. ) ;
#176 = CARTESIAN_POINT ( 'NONE',  ( 0.0000000000000000000, 0.0000000000000000000, 2.000000000000000000 ) ) ;
#177 = FACE_OUTER_BOUND ( 'NONE', #171, .T. ) ;
#178 = SURFACE_STYLE_USAGE ( .BOTH. , #44 ) ;
#179 = DIRECTION ( 'NONE',  ( -1.000000000000000000, 0.0000000000000000000, 0.0000000000000000000 ) ) ;
#180 = ORIENTED_EDGE ( 'NONE', *, *, #120, .T. ) ;
#181 =( NAMED_UNIT ( * ) PLANE_ANGLE_UNIT ( ) SI_UNIT ( $, .RADIAN. ) );
#182 = CARTESIAN_POINT ( 'NONE',  ( 0.0000000000000000000, 0.0000000000000000000, 0.0000000000000000000 ) ) ;
#183 = ADVANCED_FACE ( 'NONE', ( #156, #29 ), #154, .F. ) ;
#184 = CARTESIAN_POINT ( 'NONE',  ( 0.0000000000000000000, 0.0000000000000000000, 0.0000000000000000000 ) ) ;
#185 = SHAPE_DEFINITION_REPRESENTATION ( #205, #193 ) ;
#186 = FACE_OUTER_BOUND ( 'NONE', #149, .T. ) ;
#187 = DIRECTION ( 'NONE',  ( 1.000000000000000000, 0.0000000000000000000, 0.0000000000000000000 ) ) ;
#188 = CIRCLE ( 'NONE', #78, 3.825000000000000200 ) ;
#189 = ORIENTED_EDGE ( 'NONE', *, *, #203, .F. ) ;
#190 = AXIS2_PLACEMENT_3D ( 'NONE', #153, #200, #179 ) ;
#191 = CYLINDRICAL_SURFACE ( 'NONE', #190, 3.825000000000000200 ) ;
#192 = ORIENTED_EDGE ( 'NONE', *, *, #152, .F. ) ;
#193 = ADVANCED_BREP_SHAPE_REPRESENTATION ( 'magnetic-encoder-pair-kit-for-micro-metal-gearmotors-hpcb-compatible-w1r02a', ( #133, #6 ), #76 ) ;
#194 = CARTESIAN_POINT ( 'NONE',  ( 0.0000000000000000000, 0.0000000000000000000, 2.000000000000000000 ) ) ;
#195 = FILL_AREA_STYLE ('',( #42 ) ) ;
#196 = DIRECTION ( 'NONE',  ( 1.000000000000000000, 0.0000000000000000000, 0.0000000000000000000 ) ) ;
#197 = FACE_OUTER_BOUND ( 'NONE', #114, .T. ) ;
#198 =( NAMED_UNIT ( * ) PLANE_ANGLE_UNIT ( ) SI_UNIT ( $, .RADIAN. ) );
#199 = SURFACE_STYLE_FILL_AREA ( #195 ) ;
#200 = DIRECTION ( 'NONE',  ( -0.0000000000000000000, -0.0000000000000000000, -1.000000000000000000 ) ) ;
#201 = PRESENTATION_STYLE_ASSIGNMENT (( #52 ) ) ;
#202 = CIRCLE ( 'NONE', #124, 0.5000000000000000000 ) ;
#203 = EDGE_CURVE ( 'NONE', #1, #162, #213, .T. ) ;
#204 = SURFACE_STYLE_FILL_AREA ( #138 ) ;
#205 = PRODUCT_DEFINITION_SHAPE ( 'NONE', 'NONE',  #123 ) ;
#206 = VECTOR ( 'NONE', #17, 1000.000000000000000 ) ;
#207 = CYLINDRICAL_SURFACE ( 'NONE', #55, 0.5000000000000000000 ) ;
#208 = AXIS2_PLACEMENT_3D ( 'NONE', #26, #85, #196 ) ;
#209 = DIRECTION ( 'NONE',  ( -0.0000000000000000000, -0.0000000000000000000, -1.000000000000000000 ) ) ;
#210 = CARTESIAN_POINT ( 'NONE',  ( 0.0000000000000000000, 0.0000000000000000000, 2.000000000000000000 ) ) ;
#211 = AXIS2_PLACEMENT_3D ( 'NONE', #157, #100, #118 ) ;
#212 = DIRECTION ( 'NONE',  ( 0.0000000000000000000, 0.0000000000000000000, 1.000000000000000000 ) ) ;
#213 = CIRCLE ( 'NONE', #57, 0.5000000000000000000 ) ;
#214 = ORIENTED_EDGE ( 'NONE', *, *, #126, .T. ) ;
ENDSEC;
END-ISO-10303-21;
